ISO-10303-21;
HEADER;
FILE_DESCRIPTION (( 'STEP AP214' ),
    '1' );
FILE_NAME ('am-1742 0.430 ID 0.500 OD 0.125 Long Aluminum Spacer.STEP',
    '2024-10-04T14:20:21',
    ( '' ),
    ( '' ),
    'SwSTEP 2.0',
    'SolidWorks 2024',
    '' );
FILE_SCHEMA (( 'AUTOMOTIVE_DESIGN' ));
ENDSEC;

DATA;
#1 = FACE_OUTER_BOUND ( 'NONE', #141, .T. ) ;
#2 = DIRECTION ( 'NONE',  ( 0.000000000000000000, 0.000000000000000000, 1.000000000000000000 ) ) ;
#3 = DIRECTION ( 'NONE',  ( 1.000000000000000000, 0.000000000000000000, 0.000000000000000000 ) ) ;
#4 = CARTESIAN_POINT ( 'NONE',  ( -0.2149999999999999689, 0.000000000000000000, 0.1250000000000000000 ) ) ;
#5 = LINE ( 'NONE', #121, #15 ) ;
#6 = DIRECTION ( 'NONE',  ( 1.000000000000000000, 0.000000000000000000, 0.000000000000000000 ) ) ;
#7 = UNCERTAINTY_MEASURE_WITH_UNIT (LENGTH_MEASURE( 1.000000000000000082E-05 ), #25, 'distance_accuracy_value', 'NONE');
#8 =( LENGTH_UNIT ( ) NAMED_UNIT ( * ) SI_UNIT ( $, .METRE. ) );
#9 = ORIENTED_EDGE ( 'NONE', *, *, #20, .F. ) ;
#10 = ORIENTED_EDGE ( 'NONE', *, *, #79, .F. ) ;
#11 = EDGE_CURVE ( 'NONE', #33, #48, #185, .T. ) ;
#12 = DIRECTION ( 'NONE',  ( 0.000000000000000000, 0.000000000000000000, 1.000000000000000000 ) ) ;
#13 = ORIENTED_EDGE ( 'NONE', *, *, #96, .T. ) ;
#14 = EDGE_CURVE ( 'NONE', #51, #104, #50, .T. ) ;
#15 = VECTOR ( 'NONE', #78, 39.37007874015748143 ) ;
#16 = DIRECTION ( 'NONE',  ( 1.000000000000000000, 0.000000000000000000, 0.000000000000000000 ) ) ;
#17 = DIRECTION ( 'NONE',  ( -0.000000000000000000, -0.000000000000000000, -1.000000000000000000 ) ) ;
#18 = CARTESIAN_POINT ( 'NONE',  ( 0.000000000000000000, 0.000000000000000000, 0.1250000000000000000 ) ) ;
#19 = AXIS2_PLACEMENT_3D ( 'NONE', #199, #122, #183 ) ;
#20 = EDGE_CURVE ( 'NONE', #48, #33, #36, .T. ) ;
#21 =( CONVERSION_BASED_UNIT ( 'INCH', #167 ) LENGTH_UNIT ( ) NAMED_UNIT ( #143 ) );
#22 = DIRECTION ( 'NONE',  ( -0.000000000000000000, -0.000000000000000000, -1.000000000000000000 ) ) ;
#23 = DIRECTION ( 'NONE',  ( 0.000000000000000000, 0.000000000000000000, 1.000000000000000000 ) ) ;
#24 = AXIS2_PLACEMENT_3D ( 'NONE', #18, #150, #16 ) ;
#25 =( CONVERSION_BASED_UNIT ( 'INCH', #61 ) LENGTH_UNIT ( ) NAMED_UNIT ( #32 ) );
#26 = FACE_BOUND ( 'NONE', #113, .T. ) ;
#27 = AXIS2_PLACEMENT_3D ( 'NONE', #186, #160, #6 ) ;
#28 = ORIENTED_EDGE ( 'NONE', *, *, #11, .T. ) ;
#29 = UNCERTAINTY_MEASURE_WITH_UNIT (LENGTH_MEASURE( 1.000000000000000082E-05 ), #21, 'distance_accuracy_value', 'NONE');
#30 = ORIENTED_EDGE ( 'NONE', *, *, #96, .F. ) ;
#31 = EDGE_CURVE ( 'NONE', #102, #173, #47, .T. ) ;
#32 = DIMENSIONAL_EXPONENTS ( 1.000000000000000000, 0.000000000000000000, 0.000000000000000000, 0.000000000000000000, 0.000000000000000000, 0.000000000000000000, 0.000000000000000000 ) ;
#33 = VERTEX_POINT ( 'NONE', #41 ) ;
#34 = VERTEX_POINT ( 'NONE', #56 ) ;
#35 = CARTESIAN_POINT ( 'NONE',  ( 0.000000000000000000, 0.000000000000000000, 0.1250000000000000000 ) ) ;
#36 = CIRCLE ( 'NONE', #98, 0.2149999999999999689 ) ;
#37 = DIRECTION ( 'NONE',  ( -0.000000000000000000, -0.000000000000000000, -1.000000000000000000 ) ) ;
#38 = CARTESIAN_POINT ( 'NONE',  ( -0.2500000000000000000, 0.000000000000000000, 0.1250000000000000000 ) ) ;
#39 = SURFACE_STYLE_FILL_AREA ( #135 ) ;
#40 = CIRCLE ( 'NONE', #19, 0.2500000000000000000 ) ;
#41 = CARTESIAN_POINT ( 'NONE',  ( 0.2149999999999999689, 2.632990618166808804E-17, 0.1250000000000000000 ) ) ;
#42 = PLANE ( 'NONE',  #66 ) ;
#43 =( NAMED_UNIT ( * ) SI_UNIT ( $, .STERADIAN. ) SOLID_ANGLE_UNIT ( ) );
#44 = PRODUCT_DEFINITION_SHAPE ( 'NONE', 'NONE',  #70 ) ;
#45 = APPLICATION_PROTOCOL_DEFINITION ( 'draft international standard', 'automotive_design', 1998, #85 ) ;
#46 = EDGE_CURVE ( 'NONE', #48, #51, #107, .T. ) ;
#47 = CIRCLE ( 'NONE', #76, 0.2500000000000000000 ) ;
#48 = VERTEX_POINT ( 'NONE', #180 ) ;
#49 = DIRECTION ( 'NONE',  ( 1.000000000000000000, 0.000000000000000000, 0.000000000000000000 ) ) ;
#50 = CIRCLE ( 'NONE', #163, 0.2149999999999999689 ) ;
#51 = VERTEX_POINT ( 'NONE', #197 ) ;
#52 = APPLICATION_CONTEXT ( 'automotive_design' ) ;
#53 = ORIENTED_EDGE ( 'NONE', *, *, #176, .T. ) ;
#54 = CARTESIAN_POINT ( 'NONE',  ( 0.2149999999999999689, 2.632990618166808804E-17, 0.1250000000000000000 ) ) ;
#55 =( GEOMETRIC_REPRESENTATION_CONTEXT ( 3 ) GLOBAL_UNCERTAINTY_ASSIGNED_CONTEXT ( ( #29 ) ) GLOBAL_UNIT_ASSIGNED_CONTEXT ( ( #21, #181, #171 ) ) REPRESENTATION_CONTEXT ( 'NONE', 'WORKASPACE' ) );
#56 = CARTESIAN_POINT ( 'NONE',  ( 0.2500000000000000000, 3.061616997868383018E-17, 0.1250000000000000000 ) ) ;
#57 = CARTESIAN_POINT ( 'NONE',  ( -0.2500000000000000000, 0.000000000000000000, 0.1250000000000000000 ) ) ;
#58 = DIRECTION ( 'NONE',  ( 0.000000000000000000, 0.000000000000000000, 1.000000000000000000 ) ) ;
#59 = MECHANICAL_DESIGN_GEOMETRIC_PRESENTATION_REPRESENTATION (  '', ( #103 ), #55 ) ;
#60 = FACE_OUTER_BOUND ( 'NONE', #131, .T. ) ;
#61 = LENGTH_MEASURE_WITH_UNIT ( LENGTH_MEASURE( 0.02539999999999999897 ), #8 );
#62 = AXIS2_PLACEMENT_3D ( 'NONE', #94, #156, #158 ) ;
#63 = EDGE_CURVE ( 'NONE', #173, #102, #172, .T. ) ;
#64 = CIRCLE ( 'NONE', #151, 0.2149999999999999689 ) ;
#65 = ORIENTED_EDGE ( 'NONE', *, *, #118, .T. ) ;
#66 = AXIS2_PLACEMENT_3D ( 'NONE', #99, #23, #200 ) ;
#67 = ORIENTED_EDGE ( 'NONE', *, *, #31, .F. ) ;
#68 = VERTEX_POINT ( 'NONE', #38 ) ;
#69 = CARTESIAN_POINT ( 'NONE',  ( 0.000000000000000000, 0.000000000000000000, 0.000000000000000000 ) ) ;
#70 = PRODUCT_DEFINITION ( 'UNKNOWN', '', #146, #84 ) ;
#71 = CYLINDRICAL_SURFACE ( 'NONE', #134, 0.2149999999999999689 ) ;
#72 = AXIS2_PLACEMENT_3D ( 'NONE', #164, #166, #90 ) ;
#73 = FACE_OUTER_BOUND ( 'NONE', #132, .T. ) ;
#74 = DIRECTION ( 'NONE',  ( 0.000000000000000000, 0.000000000000000000, 1.000000000000000000 ) ) ;
#75 = CYLINDRICAL_SURFACE ( 'NONE', #72, 0.2500000000000000000 ) ;
#76 = AXIS2_PLACEMENT_3D ( 'NONE', #133, #154, #3 ) ;
#77 = DIRECTION ( 'NONE',  ( -0.000000000000000000, -0.000000000000000000, -1.000000000000000000 ) ) ;
#78 = DIRECTION ( 'NONE',  ( -0.000000000000000000, -0.000000000000000000, -1.000000000000000000 ) ) ;
#79 = EDGE_CURVE ( 'NONE', #34, #68, #195, .T. ) ;
#80 = CLOSED_SHELL ( 'NONE', ( #111, #123, #192, #155, #188, #127 ) ) ;
#81 =( NAMED_UNIT ( * ) PLANE_ANGLE_UNIT ( ) SI_UNIT ( $, .RADIAN. ) );
#82 = PRODUCT ( 'am-1742 0.430 ID 0.500 OD 0.125 Long Aluminum Spacer', 'am-1742 0.430 ID 0.500 OD 0.125 Long Aluminum Spacer', '', ( #169 ) ) ;
#83 = ORIENTED_EDGE ( 'NONE', *, *, #118, .F. ) ;
#84 = PRODUCT_DEFINITION_CONTEXT ( 'detailed design', #52, 'design' ) ;
#85 = APPLICATION_CONTEXT ( 'automotive_design' ) ;
#86 = EDGE_LOOP ( 'NONE', ( #105, #128, #13, #202 ) ) ;
#87 = EDGE_LOOP ( 'NONE', ( #9, #126 ) ) ;
#88 = AXIS2_PLACEMENT_3D ( 'NONE', #179, #58, #205 ) ;
#89 = CARTESIAN_POINT ( 'NONE',  ( 0.000000000000000000, 0.000000000000000000, 0.1250000000000000000 ) ) ;
#90 = DIRECTION ( 'NONE',  ( -1.000000000000000000, 0.000000000000000000, 0.000000000000000000 ) ) ;
#91 = LINE ( 'NONE', #57, #125 ) ;
#92 = AXIS2_PLACEMENT_3D ( 'NONE', #170, #77, #140 ) ;
#93 = DIRECTION ( 'NONE',  ( -0.000000000000000000, -0.000000000000000000, -1.000000000000000000 ) ) ;
#94 = CARTESIAN_POINT ( 'NONE',  ( 0.000000000000000000, 0.000000000000000000, 0.000000000000000000 ) ) ;
#95 = COLOUR_RGB ( '',0.7921568627450980005, 0.8196078431372548767, 0.9333333333333333481 ) ;
#96 = EDGE_CURVE ( 'NONE', #68, #102, #91, .T. ) ;
#97 = FACE_BOUND ( 'NONE', #87, .T. ) ;
#98 = AXIS2_PLACEMENT_3D ( 'NONE', #35, #2, #194 ) ;
#99 = CARTESIAN_POINT ( 'NONE',  ( 0.000000000000000000, 0.000000000000000000, 0.1250000000000000000 ) ) ;
#100 = EDGE_CURVE ( 'NONE', #104, #51, #64, .T. ) ;
#101 = ORIENTED_EDGE ( 'NONE', *, *, #46, .T. ) ;
#102 = VERTEX_POINT ( 'NONE', #152 ) ;
#103 = STYLED_ITEM ( 'NONE', ( #178 ), #147 ) ;
#104 = VERTEX_POINT ( 'NONE', #119 ) ;
#105 = ORIENTED_EDGE ( 'NONE', *, *, #165, .F. ) ;
#106 = AXIS2_PLACEMENT_3D ( 'NONE', #142, #191, #49 ) ;
#107 = LINE ( 'NONE', #4, #130 ) ;
#108 = SURFACE_SIDE_STYLE ('',( #39 ) ) ;
#109 = DIRECTION ( 'NONE',  ( -0.000000000000000000, -0.000000000000000000, -1.000000000000000000 ) ) ;
#110 = CYLINDRICAL_SURFACE ( 'NONE', #175, 0.2149999999999999689 ) ;
#111 = ADVANCED_FACE ( 'NONE', ( #1 ), #110, .F. ) ;
#112 =( GEOMETRIC_REPRESENTATION_CONTEXT ( 3 ) GLOBAL_UNCERTAINTY_ASSIGNED_CONTEXT ( ( #7 ) ) GLOBAL_UNIT_ASSIGNED_CONTEXT ( ( #25, #81, #43 ) ) REPRESENTATION_CONTEXT ( 'NONE', 'WORKASPACE' ) );
#113 = EDGE_LOOP ( 'NONE', ( #177, #115 ) ) ;
#114 = EDGE_LOOP ( 'NONE', ( #53, #190 ) ) ;
#115 = ORIENTED_EDGE ( 'NONE', *, *, #100, .T. ) ;
#116 = SURFACE_STYLE_USAGE ( .BOTH. , #108 ) ;
#117 = FACE_OUTER_BOUND ( 'NONE', #129, .T. ) ;
#118 = EDGE_CURVE ( 'NONE', #33, #104, #153, .T. ) ;
#119 = CARTESIAN_POINT ( 'NONE',  ( 0.2149999999999999689, 2.632990618166808804E-17, 0.000000000000000000 ) ) ;
#120 = PRESENTATION_LAYER_ASSIGNMENT (  '', '', ( #103 ) ) ;
#121 = CARTESIAN_POINT ( 'NONE',  ( 0.2500000000000000000, 3.061616997868383018E-17, 0.1250000000000000000 ) ) ;
#122 = DIRECTION ( 'NONE',  ( 0.000000000000000000, 0.000000000000000000, 1.000000000000000000 ) ) ;
#123 = ADVANCED_FACE ( 'NONE', ( #117 ), #75, .T. ) ;
#124 = ADVANCED_BREP_SHAPE_REPRESENTATION ( 'am-1742 0.430 ID 0.500 OD 0.125 Long Aluminum Spacer', ( #147, #27 ), #112 ) ;
#125 = VECTOR ( 'NONE', #109, 39.37007874015748143 ) ;
#126 = ORIENTED_EDGE ( 'NONE', *, *, #11, .F. ) ;
#127 = ADVANCED_FACE ( 'NONE', ( #73 ), #71, .F. ) ;
#128 = ORIENTED_EDGE ( 'NONE', *, *, #176, .F. ) ;
#129 = EDGE_LOOP ( 'NONE', ( #10, #193, #144, #30 ) ) ;
#130 = VECTOR ( 'NONE', #17, 39.37007874015748143 ) ;
#131 = EDGE_LOOP ( 'NONE', ( #67, #162 ) ) ;
#132 = EDGE_LOOP ( 'NONE', ( #83, #28, #101, #204 ) ) ;
#133 = CARTESIAN_POINT ( 'NONE',  ( 0.000000000000000000, 0.000000000000000000, 0.000000000000000000 ) ) ;
#134 = AXIS2_PLACEMENT_3D ( 'NONE', #182, #37, #137 ) ;
#135 = FILL_AREA_STYLE ('',( #149 ) ) ;
#136 = DIRECTION ( 'NONE',  ( 1.000000000000000000, 0.000000000000000000, 0.000000000000000000 ) ) ;
#137 = DIRECTION ( 'NONE',  ( -1.000000000000000000, 0.000000000000000000, 0.000000000000000000 ) ) ;
#138 = FACE_OUTER_BOUND ( 'NONE', #114, .T. ) ;
#139 = FACE_OUTER_BOUND ( 'NONE', #86, .T. ) ;
#140 = DIRECTION ( 'NONE',  ( -1.000000000000000000, 0.000000000000000000, 0.000000000000000000 ) ) ;
#141 = EDGE_LOOP ( 'NONE', ( #145, #65, #174, #148 ) ) ;
#142 = CARTESIAN_POINT ( 'NONE',  ( 0.000000000000000000, 0.000000000000000000, 0.1250000000000000000 ) ) ;
#143 = DIMENSIONAL_EXPONENTS ( 1.000000000000000000, 0.000000000000000000, 0.000000000000000000, 0.000000000000000000, 0.000000000000000000, 0.000000000000000000, 0.000000000000000000 ) ;
#144 = ORIENTED_EDGE ( 'NONE', *, *, #63, .T. ) ;
#145 = ORIENTED_EDGE ( 'NONE', *, *, #20, .T. ) ;
#146 = PRODUCT_DEFINITION_FORMATION_WITH_SPECIFIED_SOURCE ( 'ANY', '', #82, .NOT_KNOWN. ) ;
#147 = MANIFOLD_SOLID_BREP ( 'Boss-Extrude1', #80 ) ;
#148 = ORIENTED_EDGE ( 'NONE', *, *, #46, .F. ) ;
#149 = FILL_AREA_STYLE_COLOUR ( '', #95 ) ;
#150 = DIRECTION ( 'NONE',  ( 0.000000000000000000, 0.000000000000000000, 1.000000000000000000 ) ) ;
#151 = AXIS2_PLACEMENT_3D ( 'NONE', #69, #74, #136 ) ;
#152 = CARTESIAN_POINT ( 'NONE',  ( -0.2500000000000000000, 0.000000000000000000, 0.000000000000000000 ) ) ;
#153 = LINE ( 'NONE', #54, #189 ) ;
#154 = DIRECTION ( 'NONE',  ( 0.000000000000000000, 0.000000000000000000, 1.000000000000000000 ) ) ;
#155 = ADVANCED_FACE ( 'NONE', ( #60, #26 ), #198, .F. ) ;
#156 = DIRECTION ( 'NONE',  ( 0.000000000000000000, 0.000000000000000000, 1.000000000000000000 ) ) ;
#157 = SHAPE_DEFINITION_REPRESENTATION ( #44, #124 ) ;
#158 = DIRECTION ( 'NONE',  ( 1.000000000000000000, 0.000000000000000000, -0.000000000000000000 ) ) ;
#159 = PRODUCT_RELATED_PRODUCT_CATEGORY ( 'part', '', ( #82 ) ) ;
#160 = DIRECTION ( 'NONE',  ( 0.000000000000000000, 0.000000000000000000, 1.000000000000000000 ) ) ;
#161 = CARTESIAN_POINT ( 'NONE',  ( 0.000000000000000000, 0.000000000000000000, 0.000000000000000000 ) ) ;
#162 = ORIENTED_EDGE ( 'NONE', *, *, #63, .F. ) ;
#163 = AXIS2_PLACEMENT_3D ( 'NONE', #161, #12, #203 ) ;
#164 = CARTESIAN_POINT ( 'NONE',  ( 0.000000000000000000, 0.000000000000000000, 0.1250000000000000000 ) ) ;
#165 = EDGE_CURVE ( 'NONE', #34, #173, #5, .T. ) ;
#166 = DIRECTION ( 'NONE',  ( -0.000000000000000000, -0.000000000000000000, -1.000000000000000000 ) ) ;
#167 = LENGTH_MEASURE_WITH_UNIT ( LENGTH_MEASURE( 0.02539999999999999897 ), #196 );
#168 = DIRECTION ( 'NONE',  ( -1.000000000000000000, 0.000000000000000000, 0.000000000000000000 ) ) ;
#169 = PRODUCT_CONTEXT ( 'NONE', #85, 'mechanical' ) ;
#170 = CARTESIAN_POINT ( 'NONE',  ( 0.000000000000000000, 0.000000000000000000, 0.1250000000000000000 ) ) ;
#171 =( NAMED_UNIT ( * ) SI_UNIT ( $, .STERADIAN. ) SOLID_ANGLE_UNIT ( ) );
#172 = CIRCLE ( 'NONE', #88, 0.2500000000000000000 ) ;
#173 = VERTEX_POINT ( 'NONE', #187 ) ;
#174 = ORIENTED_EDGE ( 'NONE', *, *, #14, .F. ) ;
#175 = AXIS2_PLACEMENT_3D ( 'NONE', #89, #93, #168 ) ;
#176 = EDGE_CURVE ( 'NONE', #68, #34, #40, .T. ) ;
#177 = ORIENTED_EDGE ( 'NONE', *, *, #14, .T. ) ;
#178 = PRESENTATION_STYLE_ASSIGNMENT (( #116 ) ) ;
#179 = CARTESIAN_POINT ( 'NONE',  ( 0.000000000000000000, 0.000000000000000000, 0.000000000000000000 ) ) ;
#180 = CARTESIAN_POINT ( 'NONE',  ( -0.2149999999999999689, 0.000000000000000000, 0.1250000000000000000 ) ) ;
#181 =( NAMED_UNIT ( * ) PLANE_ANGLE_UNIT ( ) SI_UNIT ( $, .RADIAN. ) );
#182 = CARTESIAN_POINT ( 'NONE',  ( 0.000000000000000000, 0.000000000000000000, 0.1250000000000000000 ) ) ;
#183 = DIRECTION ( 'NONE',  ( 1.000000000000000000, 0.000000000000000000, 0.000000000000000000 ) ) ;
#184 = CYLINDRICAL_SURFACE ( 'NONE', #92, 0.2500000000000000000 ) ;
#185 = CIRCLE ( 'NONE', #106, 0.2149999999999999689 ) ;
#186 = CARTESIAN_POINT ( 'NONE',  ( 0.000000000000000000, 0.000000000000000000, 0.000000000000000000 ) ) ;
#187 = CARTESIAN_POINT ( 'NONE',  ( 0.2500000000000000000, 3.061616997868383018E-17, 0.000000000000000000 ) ) ;
#188 = ADVANCED_FACE ( 'NONE', ( #139 ), #184, .T. ) ;
#189 = VECTOR ( 'NONE', #22, 39.37007874015748143 ) ;
#190 = ORIENTED_EDGE ( 'NONE', *, *, #79, .T. ) ;
#191 = DIRECTION ( 'NONE',  ( 0.000000000000000000, 0.000000000000000000, 1.000000000000000000 ) ) ;
#192 = ADVANCED_FACE ( 'NONE', ( #138, #97 ), #42, .T. ) ;
#193 = ORIENTED_EDGE ( 'NONE', *, *, #165, .T. ) ;
#194 = DIRECTION ( 'NONE',  ( 1.000000000000000000, 0.000000000000000000, 0.000000000000000000 ) ) ;
#195 = CIRCLE ( 'NONE', #24, 0.2500000000000000000 ) ;
#196 =( LENGTH_UNIT ( ) NAMED_UNIT ( * ) SI_UNIT ( $, .METRE. ) );
#197 = CARTESIAN_POINT ( 'NONE',  ( -0.2149999999999999689, 0.000000000000000000, 0.000000000000000000 ) ) ;
#198 = PLANE ( 'NONE',  #62 ) ;
#199 = CARTESIAN_POINT ( 'NONE',  ( 0.000000000000000000, 0.000000000000000000, 0.1250000000000000000 ) ) ;
#200 = DIRECTION ( 'NONE',  ( 1.000000000000000000, 0.000000000000000000, -0.000000000000000000 ) ) ;
#201 = APPLICATION_PROTOCOL_DEFINITION ( 'draft international standard', 'automotive_design', 1998, #52 ) ;
#202 = ORIENTED_EDGE ( 'NONE', *, *, #31, .T. ) ;
#203 = DIRECTION ( 'NONE',  ( 1.000000000000000000, 0.000000000000000000, 0.000000000000000000 ) ) ;
#204 = ORIENTED_EDGE ( 'NONE', *, *, #100, .F. ) ;
#205 = DIRECTION ( 'NONE',  ( 1.000000000000000000, 0.000000000000000000, 0.000000000000000000 ) ) ;
ENDSEC;
END-ISO-10303-21;
